ISO-10303-21;
HEADER;
FILE_DESCRIPTION (( 'STEP AP203' ),
    '1' );
FILE_NAME ('B270-RNDF-25.4-0.2.STEP',
    '2021-01-05T01:22:55',
    ( '' ),
    ( '' ),
    'SwSTEP 2.0',
    'SolidWorks 2020',
    '' );
FILE_SCHEMA (( 'CONFIG_CONTROL_DESIGN' ));
ENDSEC;

DATA;
#1 = APPROVAL_STATUS ( 'not_yet_approved' ) ;
#2 = AXIS2_PLACEMENT_3D ( 'NONE', #34, #95, #75 ) ;
#3 = ORIENTED_EDGE ( 'NONE', *, *, #133, .T. ) ;
#4 = CC_DESIGN_APPROVAL ( #8, ( #40 ) ) ;
#5 = DIRECTION ( 'NONE',  ( -1.000000000000000000, -0.000000000000000000, -0.000000000000000000 ) ) ;
#6 = ORIENTED_EDGE ( 'NONE', *, *, #21, .F. ) ;
#7 = COORDINATED_UNIVERSAL_TIME_OFFSET ( 8, 0, .AHEAD. ) ;
#8 = APPROVAL ( #172, 'UNSPECIFIED' ) ;
#9 = DIRECTION ( 'NONE',  ( 0.000000000000000000, 0.000000000000000000, 1.000000000000000000 ) ) ;
#10 = COORDINATED_UNIVERSAL_TIME_OFFSET ( 8, 0, .AHEAD. ) ;
#11 = CC_DESIGN_PERSON_AND_ORGANIZATION_ASSIGNMENT ( #27, #127, ( #47 ) ) ;
#12 = APPROVAL_STATUS ( 'not_yet_approved' ) ;
#13 = PERSON ( 'UNSPECIFIED', 'UNSPECIFIED', 'UNSPECIFIED', ('UNSPECIFIED'), ('UNSPECIFIED'), ('UNSPECIFIED') ) ;
#14 = AXIS2_PLACEMENT_3D ( 'NONE', #60, #154, #22 ) ;
#15 = PERSON_AND_ORGANIZATION ( #13, #112 ) ;
#16 = LOCAL_TIME ( 9, 22, 55.00000000000000000, #106 ) ;
#17 = ADVANCED_FACE ( 'NONE', ( #152 ), #58, .T. ) ;
#18 = CARTESIAN_POINT ( 'NONE',  ( 0.000000000000000000, 0.000000000000000000, 0.000000000000000000 ) ) ;
#19 = CARTESIAN_POINT ( 'NONE',  ( 1.999999999999998224, 1.555301434917138433E-15, -12.69999999999999929 ) ) ;
#20 = ORIENTED_EDGE ( 'NONE', *, *, #21, .T. ) ;
#21 = EDGE_CURVE ( 'NONE', #97, #30, #37, .T. ) ;
#22 = DIRECTION ( 'NONE',  ( 0.000000000000000000, 0.000000000000000000, 1.000000000000000000 ) ) ;
#23 = AXIS2_PLACEMENT_3D ( 'NONE', #72, #49, #50 ) ;
#24 = APPLICATION_CONTEXT ( 'configuration controlled 3d designs of mechanical parts and assemblies' ) ;
#25 = PERSON_AND_ORGANIZATION ( #13, #112 ) ;
#26 = CALENDAR_DATE ( 2021, 5, 1 ) ;
#27 = PERSON_AND_ORGANIZATION ( #13, #112 ) ;
#28 = AXIS2_PLACEMENT_3D ( 'NONE', #122, #142, #169 ) ;
#29 = PRODUCT_DEFINITION_FORMATION_WITH_SPECIFIED_SOURCE ( 'ANY', '', #77, .NOT_KNOWN. ) ;
#30 = VERTEX_POINT ( 'NONE', #61 ) ;
#31 = FACE_OUTER_BOUND ( 'NONE', #167, .T. ) ;
#32 = PLANE ( 'NONE',  #94 ) ;
#33 = CARTESIAN_POINT ( 'NONE',  ( 0.000000000000000000, 0.000000000000000000, 12.69999999999999929 ) ) ;
#34 = CARTESIAN_POINT ( 'NONE',  ( 0.000000000000000000, 0.000000000000000000, 0.000000000000000000 ) ) ;
#35 = MECHANICAL_CONTEXT ( 'NONE', #24, 'mechanical' ) ;
#36 = DIRECTION ( 'NONE',  ( -1.000000000000000000, -0.000000000000000000, -0.000000000000000000 ) ) ;
#37 = CIRCLE ( 'NONE', #147, 12.69999999999999929 ) ;
#38 = APPROVAL_ROLE ( '' ) ;
#39 = DATE_AND_TIME ( #26, #163 ) ;
#40 = PRODUCT_DEFINITION ( 'UNKNOWN', '', #29, #137 ) ;
#41 = EDGE_CURVE ( 'NONE', #113, #70, #155, .T. ) ;
#42 = APPLICATION_CONTEXT ( 'configuration controlled 3d designs of mechanical parts and assemblies' ) ;
#43 = CYLINDRICAL_SURFACE ( 'NONE', #2, 12.69999999999999929 ) ;
#44 = CC_DESIGN_APPROVAL ( #89, ( #47 ) ) ;
#45 = ORIENTED_EDGE ( 'NONE', *, *, #78, .T. ) ;
#46 = ORIENTED_EDGE ( 'NONE', *, *, #78, .F. ) ;
#47 = SECURITY_CLASSIFICATION ( '', '', #93 ) ;
#48 = FACE_OUTER_BOUND ( 'NONE', #165, .T. ) ;
#49 = DIRECTION ( 'NONE',  ( 0.000000000000000000, 0.000000000000000000, 1.000000000000000000 ) ) ;
#50 = DIRECTION ( 'NONE',  ( 1.000000000000000000, 0.000000000000000000, 0.000000000000000000 ) ) ;
#51 = PERSON_AND_ORGANIZATION_ROLE ( 'creator' ) ;
#52 = APPROVAL_ROLE ( '' ) ;
#53 = PERSON_AND_ORGANIZATION_ROLE ( 'creator' ) ;
#54 = AXIS2_PLACEMENT_3D ( 'NONE', #125, #101, #151 ) ;
#55 = COORDINATED_UNIVERSAL_TIME_OFFSET ( 8, 0, .AHEAD. ) ;
#56 = PRODUCT_DEFINITION_SHAPE ( 'NONE', 'NONE',  #40 ) ;
#57 = APPROVAL ( #12, 'UNSPECIFIED' ) ;
#58 = CYLINDRICAL_SURFACE ( 'NONE', #80, 12.69999999999999929 ) ;
#59 = LOCAL_TIME ( 9, 22, 55.00000000000000000, #7 ) ;
#60 = CARTESIAN_POINT ( 'NONE',  ( 1.999999999999998224, 0.000000000000000000, 0.000000000000000000 ) ) ;
#61 = CARTESIAN_POINT ( 'NONE',  ( -1.187907395172932594E-15, 0.000000000000000000, 12.69999999999999929 ) ) ;
#62 = ORIENTED_EDGE ( 'NONE', *, *, #133, .F. ) ;
#63 = VECTOR ( 'NONE', #68, 1000.000000000000000 ) ;
#64 = APPROVAL_DATE_TIME ( #146, #57 ) ;
#65 = SHAPE_DEFINITION_REPRESENTATION ( #56, #82 ) ;
#66 = CC_DESIGN_PERSON_AND_ORGANIZATION_ASSIGNMENT ( #25, #51, ( #40 ) ) ;
#67 = ORIENTED_EDGE ( 'NONE', *, *, #41, .F. ) ;
#68 = DIRECTION ( 'NONE',  ( -1.000000000000000000, -0.000000000000000000, -0.000000000000000000 ) ) ;
#69 = CC_DESIGN_DATE_AND_TIME_ASSIGNMENT ( #91, #73, ( #40 ) ) ;
#70 = VERTEX_POINT ( 'NONE', #19 ) ;
#71 = DATE_AND_TIME ( #170, #59 ) ;
#72 = CARTESIAN_POINT ( 'NONE',  ( 0.000000000000000000, 0.000000000000000000, 0.000000000000000000 ) ) ;
#73 = DATE_TIME_ROLE ( 'creation_date' ) ;
#74 = ADVANCED_FACE ( 'NONE', ( #31 ), #32, .F. ) ;
#75 = DIRECTION ( 'NONE',  ( 0.000000000000000000, 0.000000000000000000, 1.000000000000000000 ) ) ;
#76 = CIRCLE ( 'NONE', #54, 12.69999999999999929 ) ;
#77 = PRODUCT ( 'B270-RNDF-25.4-0.2', 'B270-RNDF-25.4-0.2', '', ( #35 ) ) ;
#78 = EDGE_CURVE ( 'NONE', #113, #30, #121, .T. ) ;
#79 =( GEOMETRIC_REPRESENTATION_CONTEXT ( 3 ) GLOBAL_UNCERTAINTY_ASSIGNED_CONTEXT ( ( #157 ) ) GLOBAL_UNIT_ASSIGNED_CONTEXT ( ( #131, #90, #132 ) ) REPRESENTATION_CONTEXT ( 'NONE', 'WORKASPACE' ) );
#80 = AXIS2_PLACEMENT_3D ( 'NONE', #18, #5, #99 ) ;
#81 = ORIENTED_EDGE ( 'NONE', *, *, #162, .F. ) ;
#82 = ADVANCED_BREP_SHAPE_REPRESENTATION ( 'B270-RNDF-25.4-0.2', ( #126, #23 ), #79 ) ;
#83 = ORIENTED_EDGE ( 'NONE', *, *, #164, .T. ) ;
#84 = DIRECTION ( 'NONE',  ( 0.000000000000000000, 0.000000000000000000, -1.000000000000000000 ) ) ;
#85 = LOCAL_TIME ( 9, 22, 55.00000000000000000, #88 ) ;
#86 = PLANE ( 'NONE',  #28 ) ;
#87 = ORIENTED_EDGE ( 'NONE', *, *, #41, .T. ) ;
#88 = COORDINATED_UNIVERSAL_TIME_OFFSET ( 8, 0, .AHEAD. ) ;
#89 = APPROVAL ( #1, 'UNSPECIFIED' ) ;
#90 =( NAMED_UNIT ( * ) PLANE_ANGLE_UNIT ( ) SI_UNIT ( $, .RADIAN. ) );
#91 = DATE_AND_TIME ( #171, #16 ) ;
#92 = CALENDAR_DATE ( 2021, 5, 1 ) ;
#93 = SECURITY_CLASSIFICATION_LEVEL ( 'unclassified' ) ;
#94 = AXIS2_PLACEMENT_3D ( 'NONE', #114, #139, #84 ) ;
#95 = DIRECTION ( 'NONE',  ( -1.000000000000000000, -0.000000000000000000, -0.000000000000000000 ) ) ;
#96 = CLOSED_SHELL ( 'NONE', ( #17, #148, #130, #74 ) ) ;
#97 = VERTEX_POINT ( 'NONE', #140 ) ;
#98 = CARTESIAN_POINT ( 'NONE',  ( -1.187907395172932594E-15, 0.000000000000000000, 0.000000000000000000 ) ) ;
#99 = DIRECTION ( 'NONE',  ( 0.000000000000000000, 0.000000000000000000, 1.000000000000000000 ) ) ;
#100 = CC_DESIGN_SECURITY_CLASSIFICATION ( #47, ( #29 ) ) ;
#101 = DIRECTION ( 'NONE',  ( -1.000000000000000000, -0.000000000000000000, -0.000000000000000000 ) ) ;
#102 = APPLICATION_PROTOCOL_DEFINITION ( 'international standard', 'config_control_design', 1994, #42 ) ;
#103 = PERSON_AND_ORGANIZATION ( #13, #112 ) ;
#104 = APPROVAL_PERSON_ORGANIZATION ( #103, #57, #38 ) ;
#105 = VECTOR ( 'NONE', #36, 1000.000000000000000 ) ;
#106 = COORDINATED_UNIVERSAL_TIME_OFFSET ( 8, 0, .AHEAD. ) ;
#107 = CARTESIAN_POINT ( 'NONE',  ( 0.000000000000000000, 1.555301434917138433E-15, -12.69999999999999929 ) ) ;
#108 = PERSON_AND_ORGANIZATION ( #13, #112 ) ;
#109 = CIRCLE ( 'NONE', #128, 12.69999999999999929 ) ;
#110 = EDGE_LOOP ( 'NONE', ( #111, #3, #45, #6 ) ) ;
#111 = ORIENTED_EDGE ( 'NONE', *, *, #164, .F. ) ;
#112 = ORGANIZATION ( 'UNSPECIFIED', 'UNSPECIFIED', '' ) ;
#113 = VERTEX_POINT ( 'NONE', #168 ) ;
#114 = CARTESIAN_POINT ( 'NONE',  ( -5.939536975864662969E-16, 12.69999999999999929, 0.000000000000000000 ) ) ;
#115 = LOCAL_TIME ( 9, 22, 55.00000000000000000, #55 ) ;
#116 = PERSON_AND_ORGANIZATION_ROLE ( 'design_owner' ) ;
#117 = APPROVAL_DATE_TIME ( #39, #8 ) ;
#118 = CC_DESIGN_DATE_AND_TIME_ASSIGNMENT ( #71, #120, ( #47 ) ) ;
#119 = CC_DESIGN_APPROVAL ( #57, ( #29 ) ) ;
#120 = DATE_TIME_ROLE ( 'classification_date' ) ;
#121 = LINE ( 'NONE', #33, #63 ) ;
#122 = CARTESIAN_POINT ( 'NONE',  ( 1.999999999999999112, 12.69999999999999929, 0.000000000000000000 ) ) ;
#123 = APPROVAL_PERSON_ORGANIZATION ( #135, #8, #52 ) ;
#124 = DIRECTION ( 'NONE',  ( -1.000000000000000000, -0.000000000000000000, -0.000000000000000000 ) ) ;
#125 = CARTESIAN_POINT ( 'NONE',  ( 1.999999999999998224, 0.000000000000000000, 0.000000000000000000 ) ) ;
#126 = MANIFOLD_SOLID_BREP ( 'Ðý×', #96 ) ;
#127 = PERSON_AND_ORGANIZATION_ROLE ( 'classification_officer' ) ;
#128 = AXIS2_PLACEMENT_3D ( 'NONE', #145, #144, #9 ) ;
#129 = LINE ( 'NONE', #107, #105 ) ;
#130 = ADVANCED_FACE ( 'NONE', ( #48 ), #86, .F. ) ;
#131 =( LENGTH_UNIT ( ) NAMED_UNIT ( * ) SI_UNIT ( .MILLI., .METRE. ) );
#132 =( NAMED_UNIT ( * ) SI_UNIT ( $, .STERADIAN. ) SOLID_ANGLE_UNIT ( ) );
#133 = EDGE_CURVE ( 'NONE', #70, #113, #76, .T. ) ;
#134 = APPROVAL_PERSON_ORGANIZATION ( #15, #89, #149 ) ;
#135 = PERSON_AND_ORGANIZATION ( #13, #112 ) ;
#136 = APPROVAL_DATE_TIME ( #150, #89 ) ;
#137 = DESIGN_CONTEXT ( 'detailed design', #42, 'design' ) ;
#138 = PRODUCT_RELATED_PRODUCT_CATEGORY ( 'detail', '', ( #77 ) ) ;
#139 = DIRECTION ( 'NONE',  ( 1.000000000000000000, 0.000000000000000000, 0.000000000000000000 ) ) ;
#140 = CARTESIAN_POINT ( 'NONE',  ( -1.187907395172932594E-15, 1.555301434917138433E-15, -12.69999999999999929 ) ) ;
#141 = CC_DESIGN_PERSON_AND_ORGANIZATION_ASSIGNMENT ( #108, #160, ( #29 ) ) ;
#142 = DIRECTION ( 'NONE',  ( -1.000000000000000000, 0.000000000000000000, -0.000000000000000000 ) ) ;
#143 = ORIENTED_EDGE ( 'NONE', *, *, #162, .T. ) ;
#144 = DIRECTION ( 'NONE',  ( -1.000000000000000000, -0.000000000000000000, -0.000000000000000000 ) ) ;
#145 = CARTESIAN_POINT ( 'NONE',  ( -1.187907395172932594E-15, 0.000000000000000000, 0.000000000000000000 ) ) ;
#146 = DATE_AND_TIME ( #92, #85 ) ;
#147 = AXIS2_PLACEMENT_3D ( 'NONE', #98, #124, #153 ) ;
#148 = ADVANCED_FACE ( 'NONE', ( #156 ), #43, .T. ) ;
#149 = APPROVAL_ROLE ( '' ) ;
#150 = DATE_AND_TIME ( #161, #115 ) ;
#151 = DIRECTION ( 'NONE',  ( 0.000000000000000000, 0.000000000000000000, 1.000000000000000000 ) ) ;
#152 = FACE_OUTER_BOUND ( 'NONE', #166, .T. ) ;
#153 = DIRECTION ( 'NONE',  ( 0.000000000000000000, 0.000000000000000000, 1.000000000000000000 ) ) ;
#154 = DIRECTION ( 'NONE',  ( -1.000000000000000000, -0.000000000000000000, -0.000000000000000000 ) ) ;
#155 = CIRCLE ( 'NONE', #14, 12.69999999999999929 ) ;
#156 = FACE_OUTER_BOUND ( 'NONE', #110, .T. ) ;
#157 = UNCERTAINTY_MEASURE_WITH_UNIT (LENGTH_MEASURE( 1.000000000000000082E-05 ), #131, 'distance_accuracy_value', 'NONE');
#158 = CC_DESIGN_PERSON_AND_ORGANIZATION_ASSIGNMENT ( #159, #116, ( #77 ) ) ;
#159 = PERSON_AND_ORGANIZATION ( #13, #112 ) ;
#160 = PERSON_AND_ORGANIZATION_ROLE ( 'design_supplier' ) ;
#161 = CALENDAR_DATE ( 2021, 5, 1 ) ;
#162 = EDGE_CURVE ( 'NONE', #30, #97, #109, .T. ) ;
#163 = LOCAL_TIME ( 9, 22, 55.00000000000000000, #10 ) ;
#164 = EDGE_CURVE ( 'NONE', #70, #97, #129, .T. ) ;
#165 = EDGE_LOOP ( 'NONE', ( #67, #62 ) ) ;
#166 = EDGE_LOOP ( 'NONE', ( #87, #83, #81, #46 ) ) ;
#167 = EDGE_LOOP ( 'NONE', ( #143, #20 ) ) ;
#168 = CARTESIAN_POINT ( 'NONE',  ( 1.999999999999998224, 0.000000000000000000, 12.69999999999999929 ) ) ;
#169 = DIRECTION ( 'NONE',  ( -0.000000000000000000, 0.000000000000000000, 1.000000000000000000 ) ) ;
#170 = CALENDAR_DATE ( 2021, 5, 1 ) ;
#171 = CALENDAR_DATE ( 2021, 5, 1 ) ;
#172 = APPROVAL_STATUS ( 'not_yet_approved' ) ;
#173 = APPLICATION_PROTOCOL_DEFINITION ( 'international standard', 'config_control_design', 1994, #24 ) ;
#174 = CC_DESIGN_PERSON_AND_ORGANIZATION_ASSIGNMENT ( #175, #53, ( #29 ) ) ;
#175 = PERSON_AND_ORGANIZATION ( #13, #112 ) ;
ENDSEC;
END-ISO-10303-21;
